ISO-10303-21;
HEADER;
FILE_DESCRIPTION((''),'2;1');
FILE_NAME('MGAG-0036-BA','2023-11-13T10:14:05',('DLachman'),
('MATHESON TRI-GAS'),'CREO PARAMETRIC BY PTC INC, 2022281',
'CREO PARAMETRIC BY PTC INC, 2022281','');
FILE_SCHEMA(('CONFIG_CONTROL_DESIGN'));
ENDSEC;
DATA;
#2=CARTESIAN_POINT('',(0.E0,-2.44E0,-4.15E-1));
#3=DIRECTION('',(0.E0,-1.E0,0.E0));
#4=DIRECTION('',(-1.E0,0.E0,0.E0));
#5=AXIS2_PLACEMENT_3D('',#2,#3,#4);
#7=CARTESIAN_POINT('',(0.E0,-2.44E0,-4.15E-1));
#8=DIRECTION('',(0.E0,-1.E0,0.E0));
#9=DIRECTION('',(1.E0,0.E0,0.E0));
#10=AXIS2_PLACEMENT_3D('',#7,#8,#9);
#12=DIRECTION('',(-3.489949670250E-2,-9.993908270191E-1,0.E0));
#13=VECTOR('',#12,6.253809651868E-1);
#14=CARTESIAN_POINT('',(2.7E-1,-1.815E0,-4.15E-1));
#15=LINE('',#14,#13);
#16=DIRECTION('',(3.489949670250E-2,-9.993908270191E-1,0.E0));
#17=VECTOR('',#16,6.253809651868E-1);
#18=CARTESIAN_POINT('',(-2.7E-1,-1.815E0,-4.15E-1));
#19=LINE('',#18,#17);
#20=CARTESIAN_POINT('',(0.E0,-1.815E0,-4.15E-1));
#21=DIRECTION('',(0.E0,1.E0,0.E0));
#22=DIRECTION('',(-1.E0,0.E0,0.E0));
#23=AXIS2_PLACEMENT_3D('',#20,#21,#22);
#25=CARTESIAN_POINT('',(0.E0,-1.815E0,-4.15E-1));
#26=DIRECTION('',(0.E0,1.E0,0.E0));
#27=DIRECTION('',(1.E0,0.E0,0.E0));
#28=AXIS2_PLACEMENT_3D('',#25,#26,#27);
#30=DIRECTION('',(0.E0,0.E0,1.E0));
#31=VECTOR('',#30,5.6E-1);
#32=CARTESIAN_POINT('',(-2.8E-1,-1.815E0,-6.95E-1));
#33=LINE('',#32,#31);
#34=DIRECTION('',(0.E0,-1.E0,0.E0));
#35=VECTOR('',#34,5.199227822249E-1);
#36=CARTESIAN_POINT('',(-2.8E-1,-1.295077217775E0,-6.95E-1));
#37=LINE('',#36,#35);
#38=DIRECTION('',(0.E0,0.E0,1.E0));
#39=VECTOR('',#38,5.6E-1);
#40=CARTESIAN_POINT('',(-2.8E-1,-1.295077217775E0,-6.95E-1));
#41=LINE('',#40,#39);
#42=DIRECTION('',(0.E0,0.E0,-1.E0));
#43=VECTOR('',#42,5.6E-1);
#44=CARTESIAN_POINT('',(2.8E-1,-1.295077217775E0,-1.35E-1));
#45=LINE('',#44,#43);
#46=CARTESIAN_POINT('',(0.E0,0.E0,-6.95E-1));
#47=DIRECTION('',(0.E0,0.E0,1.E0));
#48=DIRECTION('',(-2.113207547170E-1,-9.774167681321E-1,0.E0));
#49=AXIS2_PLACEMENT_3D('',#46,#47,#48);
#51=DIRECTION('',(-1.E0,0.E0,0.E0));
#52=VECTOR('',#51,5.6E-1);
#53=CARTESIAN_POINT('',(2.8E-1,-1.815E0,-6.95E-1));
#54=LINE('',#53,#52);
#55=DIRECTION('',(0.E0,1.E0,0.E0));
#56=VECTOR('',#55,5.199227822249E-1);
#57=CARTESIAN_POINT('',(2.8E-1,-1.815E0,-6.95E-1));
#58=LINE('',#57,#56);
#59=DIRECTION('',(0.E0,0.E0,-1.E0));
#60=VECTOR('',#59,5.6E-1);
#61=CARTESIAN_POINT('',(2.8E-1,-1.815E0,-1.35E-1));
#62=LINE('',#61,#60);
#63=CARTESIAN_POINT('',(0.E0,0.E0,-1.35E-1));
#64=DIRECTION('',(0.E0,0.E0,-1.E0));
#65=DIRECTION('',(2.113207547170E-1,-9.774167681321E-1,0.E0));
#66=AXIS2_PLACEMENT_3D('',#63,#64,#65);
#68=DIRECTION('',(0.E0,1.E0,0.E0));
#69=VECTOR('',#68,5.199227822249E-1);
#70=CARTESIAN_POINT('',(2.8E-1,-1.815E0,-1.35E-1));
#71=LINE('',#70,#69);
#72=DIRECTION('',(1.E0,0.E0,0.E0));
#73=VECTOR('',#72,5.6E-1);
#74=CARTESIAN_POINT('',(-2.8E-1,-1.815E0,-1.35E-1));
#75=LINE('',#74,#73);
#76=DIRECTION('',(0.E0,-1.E0,0.E0));
#77=VECTOR('',#76,5.199227822249E-1);
#78=CARTESIAN_POINT('',(-2.8E-1,-1.295077217775E0,-1.35E-1));
#79=LINE('',#78,#77);
#80=CARTESIAN_POINT('',(0.E0,0.E0,-8.3E-1));
#81=DIRECTION('',(0.E0,0.E0,-1.E0));
#82=DIRECTION('',(1.E0,0.E0,0.E0));
#83=AXIS2_PLACEMENT_3D('',#80,#81,#82);
#85=CARTESIAN_POINT('',(0.E0,0.E0,-8.3E-1));
#86=DIRECTION('',(0.E0,0.E0,-1.E0));
#87=DIRECTION('',(-1.E0,0.E0,0.E0));
#88=AXIS2_PLACEMENT_3D('',#85,#86,#87);
#90=DIRECTION('',(0.E0,0.E0,-1.E0));
#91=VECTOR('',#90,8.3E-1);
#92=CARTESIAN_POINT('',(1.325E0,0.E0,0.E0));
#93=LINE('',#92,#91);
#94=DIRECTION('',(0.E0,0.E0,-1.E0));
#95=VECTOR('',#94,8.3E-1);
#96=CARTESIAN_POINT('',(-1.325E0,0.E0,0.E0));
#97=LINE('',#96,#95);
#98=CARTESIAN_POINT('',(0.E0,0.E0,0.E0));
#99=DIRECTION('',(0.E0,0.E0,1.E0));
#100=DIRECTION('',(1.E0,0.E0,0.E0));
#101=AXIS2_PLACEMENT_3D('',#98,#99,#100);
#103=CARTESIAN_POINT('',(0.E0,0.E0,0.E0));
#104=DIRECTION('',(0.E0,0.E0,1.E0));
#105=DIRECTION('',(-1.E0,0.E0,0.E0));
#106=AXIS2_PLACEMENT_3D('',#103,#104,#105);
#108=CARTESIAN_POINT('',(0.E0,0.E0,0.E0));
#109=DIRECTION('',(0.E0,0.E0,-1.E0));
#110=DIRECTION('',(-1.E0,0.E0,0.E0));
#111=AXIS2_PLACEMENT_3D('',#108,#109,#110);
#113=CARTESIAN_POINT('',(0.E0,0.E0,0.E0));
#114=DIRECTION('',(0.E0,0.E0,-1.E0));
#115=DIRECTION('',(1.E0,0.E0,0.E0));
#116=AXIS2_PLACEMENT_3D('',#113,#114,#115);
#118=DIRECTION('',(0.E0,0.E0,1.E0));
#119=VECTOR('',#118,3.6E-1);
#120=CARTESIAN_POINT('',(-1.415E0,0.E0,0.E0));
#121=LINE('',#120,#119);
#122=DIRECTION('',(0.E0,0.E0,1.E0));
#123=VECTOR('',#122,3.6E-1);
#124=CARTESIAN_POINT('',(1.415E0,0.E0,0.E0));
#125=LINE('',#124,#123);
#126=CARTESIAN_POINT('',(0.E0,0.E0,3.6E-1));
#127=DIRECTION('',(0.E0,0.E0,1.E0));
#128=DIRECTION('',(-1.E0,0.E0,0.E0));
#129=AXIS2_PLACEMENT_3D('',#126,#127,#128);
#131=CARTESIAN_POINT('',(0.E0,0.E0,3.6E-1));
#132=DIRECTION('',(0.E0,0.E0,1.E0));
#133=DIRECTION('',(1.E0,0.E0,0.E0));
#134=AXIS2_PLACEMENT_3D('',#131,#132,#133);
#136=CARTESIAN_POINT('',(-2.8E-1,-1.295077217775E0,-1.35E-1));
#137=CARTESIAN_POINT('',(-2.8E-1,-1.815E0,-1.35E-1));
#138=VERTEX_POINT('',#136);
#139=VERTEX_POINT('',#137);
#140=CARTESIAN_POINT('',(2.8E-1,-1.815E0,-1.35E-1));
#141=CARTESIAN_POINT('',(2.8E-1,-1.295077217775E0,-1.35E-1));
#142=VERTEX_POINT('',#140);
#143=VERTEX_POINT('',#141);
#144=CARTESIAN_POINT('',(-2.8E-1,-1.295077217775E0,-6.95E-1));
#145=CARTESIAN_POINT('',(-2.8E-1,-1.815E0,-6.95E-1));
#146=VERTEX_POINT('',#144);
#147=VERTEX_POINT('',#145);
#148=CARTESIAN_POINT('',(2.8E-1,-1.815E0,-6.95E-1));
#149=CARTESIAN_POINT('',(2.8E-1,-1.295077217775E0,-6.95E-1));
#150=VERTEX_POINT('',#148);
#151=VERTEX_POINT('',#149);
#152=CARTESIAN_POINT('',(-2.7E-1,-1.815E0,-4.15E-1));
#153=CARTESIAN_POINT('',(-2.481745190677E-1,-2.44E0,-4.15E-1));
#154=VERTEX_POINT('',#152);
#155=VERTEX_POINT('',#153);
#156=CARTESIAN_POINT('',(2.7E-1,-1.815E0,-4.15E-1));
#157=CARTESIAN_POINT('',(2.481745190677E-1,-2.44E0,-4.15E-1));
#158=VERTEX_POINT('',#156);
#159=VERTEX_POINT('',#157);
#160=CARTESIAN_POINT('',(-1.325E0,0.E0,0.E0));
#161=CARTESIAN_POINT('',(-1.325E0,0.E0,-8.3E-1));
#162=VERTEX_POINT('',#160);
#163=VERTEX_POINT('',#161);
#164=CARTESIAN_POINT('',(1.325E0,0.E0,0.E0));
#165=CARTESIAN_POINT('',(1.325E0,0.E0,-8.3E-1));
#166=VERTEX_POINT('',#164);
#167=VERTEX_POINT('',#165);
#168=CARTESIAN_POINT('',(1.415E0,0.E0,0.E0));
#169=CARTESIAN_POINT('',(1.415E0,0.E0,3.6E-1));
#170=VERTEX_POINT('',#168);
#171=VERTEX_POINT('',#169);
#172=CARTESIAN_POINT('',(-1.415E0,0.E0,0.E0));
#173=CARTESIAN_POINT('',(-1.415E0,0.E0,3.6E-1));
#174=VERTEX_POINT('',#172);
#175=VERTEX_POINT('',#173);
#176=CARTESIAN_POINT('',(0.E0,-2.1275E0,-4.15E-1));
#177=DIRECTION('',(0.E0,1.E0,0.E0));
#178=DIRECTION('',(-1.E0,0.E0,0.E0));
#179=AXIS2_PLACEMENT_3D('',#176,#177,#178);
#180=CONICAL_SURFACE('',#179,2.590872595338E-1,2.E0);
#182=ORIENTED_EDGE('',*,*,#181,.T.);
#184=ORIENTED_EDGE('',*,*,#183,.F.);
#186=ORIENTED_EDGE('',*,*,#185,.T.);
#188=ORIENTED_EDGE('',*,*,#187,.T.);
#189=EDGE_LOOP('',(#182,#184,#186,#188));
#190=FACE_OUTER_BOUND('',#189,.F.);
#191=ADVANCED_FACE('',(#190),#180,.T.);
#192=CARTESIAN_POINT('',(0.E0,-2.44E0,-4.15E-1));
#193=DIRECTION('',(0.E0,1.E0,0.E0));
#194=DIRECTION('',(0.E0,0.E0,1.E0));
#195=AXIS2_PLACEMENT_3D('',#192,#193,#194);
#196=PLANE('',#195);
#198=ORIENTED_EDGE('',*,*,#197,.F.);
#199=ORIENTED_EDGE('',*,*,#181,.F.);
#200=EDGE_LOOP('',(#198,#199));
#201=FACE_OUTER_BOUND('',#200,.F.);
#202=ADVANCED_FACE('',(#201),#196,.F.);
#203=CARTESIAN_POINT('',(0.E0,-2.1275E0,-4.15E-1));
#204=DIRECTION('',(0.E0,1.E0,0.E0));
#205=DIRECTION('',(-1.E0,0.E0,0.E0));
#206=AXIS2_PLACEMENT_3D('',#203,#204,#205);
#207=CONICAL_SURFACE('',#206,2.590872595338E-1,2.E0);
#208=ORIENTED_EDGE('',*,*,#197,.T.);
#209=ORIENTED_EDGE('',*,*,#187,.F.);
#211=ORIENTED_EDGE('',*,*,#210,.T.);
#212=ORIENTED_EDGE('',*,*,#183,.T.);
#213=EDGE_LOOP('',(#208,#209,#211,#212));
#214=FACE_OUTER_BOUND('',#213,.F.);
#215=ADVANCED_FACE('',(#214),#207,.T.);
#216=CARTESIAN_POINT('',(0.E0,-1.815E0,-4.15E-1));
#217=DIRECTION('',(0.E0,1.E0,0.E0));
#218=DIRECTION('',(0.E0,0.E0,1.E0));
#219=AXIS2_PLACEMENT_3D('',#216,#217,#218);
#220=PLANE('',#219);
#222=ORIENTED_EDGE('',*,*,#221,.T.);
#224=ORIENTED_EDGE('',*,*,#223,.T.);
#226=ORIENTED_EDGE('',*,*,#225,.T.);
#228=ORIENTED_EDGE('',*,*,#227,.T.);
#229=EDGE_LOOP('',(#222,#224,#226,#228));
#230=FACE_OUTER_BOUND('',#229,.F.);
#231=ORIENTED_EDGE('',*,*,#185,.F.);
#232=ORIENTED_EDGE('',*,*,#210,.F.);
#233=EDGE_LOOP('',(#231,#232));
#234=FACE_BOUND('',#233,.F.);
#235=ADVANCED_FACE('',(#230,#234),#220,.F.);
#236=CARTESIAN_POINT('',(-2.8E-1,0.E0,-6.95E-1));
#237=DIRECTION('',(-1.E0,0.E0,0.E0));
#238=DIRECTION('',(0.E0,0.E0,1.E0));
#239=AXIS2_PLACEMENT_3D('',#236,#237,#238);
#240=PLANE('',#239);
#242=ORIENTED_EDGE('',*,*,#241,.T.);
#244=ORIENTED_EDGE('',*,*,#243,.T.);
#245=ORIENTED_EDGE('',*,*,#221,.F.);
#247=ORIENTED_EDGE('',*,*,#246,.F.);
#248=EDGE_LOOP('',(#242,#244,#245,#247));
#249=FACE_OUTER_BOUND('',#248,.F.);
#250=ADVANCED_FACE('',(#249),#240,.T.);
#251=CARTESIAN_POINT('',(0.E0,0.E0,0.E0));
#252=DIRECTION('',(0.E0,0.E0,-1.E0));
#253=DIRECTION('',(1.E0,0.E0,0.E0));
#254=AXIS2_PLACEMENT_3D('',#251,#252,#253);
#255=CYLINDRICAL_SURFACE('',#254,1.325E0);
#257=ORIENTED_EDGE('',*,*,#256,.T.);
#259=ORIENTED_EDGE('',*,*,#258,.F.);
#261=ORIENTED_EDGE('',*,*,#260,.T.);
#263=ORIENTED_EDGE('',*,*,#262,.T.);
#264=EDGE_LOOP('',(#257,#259,#261,#263));
#265=FACE_OUTER_BOUND('',#264,.F.);
#266=ORIENTED_EDGE('',*,*,#241,.F.);
#268=ORIENTED_EDGE('',*,*,#267,.T.);
#270=ORIENTED_EDGE('',*,*,#269,.F.);
#272=ORIENTED_EDGE('',*,*,#271,.T.);
#273=EDGE_LOOP('',(#266,#268,#270,#272));
#274=FACE_BOUND('',#273,.F.);
#275=ADVANCED_FACE('',(#265,#274),#255,.T.);
#276=CARTESIAN_POINT('',(2.8E-1,0.E0,-6.95E-1));
#277=DIRECTION('',(0.E0,0.E0,-1.E0));
#278=DIRECTION('',(-1.E0,0.E0,0.E0));
#279=AXIS2_PLACEMENT_3D('',#276,#277,#278);
#280=PLANE('',#279);
#281=ORIENTED_EDGE('',*,*,#267,.F.);
#282=ORIENTED_EDGE('',*,*,#246,.T.);
#283=ORIENTED_EDGE('',*,*,#227,.F.);
#285=ORIENTED_EDGE('',*,*,#284,.T.);
#286=EDGE_LOOP('',(#281,#282,#283,#285));
#287=FACE_OUTER_BOUND('',#286,.F.);
#288=ADVANCED_FACE('',(#287),#280,.T.);
#289=CARTESIAN_POINT('',(2.8E-1,0.E0,-1.35E-1));
#290=DIRECTION('',(1.E0,0.E0,0.E0));
#291=DIRECTION('',(0.E0,0.E0,-1.E0));
#292=AXIS2_PLACEMENT_3D('',#289,#290,#291);
#293=PLANE('',#292);
#294=ORIENTED_EDGE('',*,*,#269,.T.);
#295=ORIENTED_EDGE('',*,*,#284,.F.);
#296=ORIENTED_EDGE('',*,*,#225,.F.);
#298=ORIENTED_EDGE('',*,*,#297,.T.);
#299=EDGE_LOOP('',(#294,#295,#296,#298));
#300=FACE_OUTER_BOUND('',#299,.F.);
#301=ADVANCED_FACE('',(#300),#293,.T.);
#302=CARTESIAN_POINT('',(-2.8E-1,0.E0,-1.35E-1));
#303=DIRECTION('',(0.E0,0.E0,1.E0));
#304=DIRECTION('',(1.E0,0.E0,0.E0));
#305=AXIS2_PLACEMENT_3D('',#302,#303,#304);
#306=PLANE('',#305);
#307=ORIENTED_EDGE('',*,*,#271,.F.);
#308=ORIENTED_EDGE('',*,*,#297,.F.);
#309=ORIENTED_EDGE('',*,*,#223,.F.);
#310=ORIENTED_EDGE('',*,*,#243,.F.);
#311=EDGE_LOOP('',(#307,#308,#309,#310));
#312=FACE_OUTER_BOUND('',#311,.F.);
#313=ADVANCED_FACE('',(#312),#306,.T.);
#314=CARTESIAN_POINT('',(0.E0,0.E0,-8.3E-1));
#315=DIRECTION('',(0.E0,0.E0,1.E0));
#316=DIRECTION('',(1.E0,0.E0,0.E0));
#317=AXIS2_PLACEMENT_3D('',#314,#315,#316);
#318=PLANE('',#317);
#319=ORIENTED_EDGE('',*,*,#256,.F.);
#321=ORIENTED_EDGE('',*,*,#320,.F.);
#322=EDGE_LOOP('',(#319,#321));
#323=FACE_OUTER_BOUND('',#322,.F.);
#324=ADVANCED_FACE('',(#323),#318,.F.);
#325=CARTESIAN_POINT('',(0.E0,0.E0,0.E0));
#326=DIRECTION('',(0.E0,0.E0,-1.E0));
#327=DIRECTION('',(1.E0,0.E0,0.E0));
#328=AXIS2_PLACEMENT_3D('',#325,#326,#327);
#329=CYLINDRICAL_SURFACE('',#328,1.325E0);
#330=ORIENTED_EDGE('',*,*,#320,.T.);
#331=ORIENTED_EDGE('',*,*,#262,.F.);
#333=ORIENTED_EDGE('',*,*,#332,.T.);
#334=ORIENTED_EDGE('',*,*,#258,.T.);
#335=EDGE_LOOP('',(#330,#331,#333,#334));
#336=FACE_OUTER_BOUND('',#335,.F.);
#337=ADVANCED_FACE('',(#336),#329,.T.);
#338=CARTESIAN_POINT('',(0.E0,0.E0,0.E0));
#339=DIRECTION('',(0.E0,0.E0,-1.E0));
#340=DIRECTION('',(-1.E0,0.E0,0.E0));
#341=AXIS2_PLACEMENT_3D('',#338,#339,#340);
#342=PLANE('',#341);
#344=ORIENTED_EDGE('',*,*,#343,.F.);
#346=ORIENTED_EDGE('',*,*,#345,.F.);
#347=EDGE_LOOP('',(#344,#346));
#348=FACE_OUTER_BOUND('',#347,.F.);
#349=ORIENTED_EDGE('',*,*,#332,.F.);
#350=ORIENTED_EDGE('',*,*,#260,.F.);
#351=EDGE_LOOP('',(#349,#350));
#352=FACE_BOUND('',#351,.F.);
#353=ADVANCED_FACE('',(#348,#352),#342,.T.);
#354=CARTESIAN_POINT('',(0.E0,0.E0,0.E0));
#355=DIRECTION('',(0.E0,0.E0,1.E0));
#356=DIRECTION('',(-1.E0,0.E0,0.E0));
#357=AXIS2_PLACEMENT_3D('',#354,#355,#356);
#358=CYLINDRICAL_SURFACE('',#357,1.415E0);
#360=ORIENTED_EDGE('',*,*,#359,.T.);
#362=ORIENTED_EDGE('',*,*,#361,.F.);
#363=ORIENTED_EDGE('',*,*,#343,.T.);
#365=ORIENTED_EDGE('',*,*,#364,.T.);
#366=EDGE_LOOP('',(#360,#362,#363,#365));
#367=FACE_OUTER_BOUND('',#366,.F.);
#368=ADVANCED_FACE('',(#367),#358,.T.);
#369=CARTESIAN_POINT('',(0.E0,0.E0,3.6E-1));
#370=DIRECTION('',(0.E0,0.E0,-1.E0));
#371=DIRECTION('',(-1.E0,0.E0,0.E0));
#372=AXIS2_PLACEMENT_3D('',#369,#370,#371);
#373=PLANE('',#372);
#375=ORIENTED_EDGE('',*,*,#374,.F.);
#376=ORIENTED_EDGE('',*,*,#359,.F.);
#377=EDGE_LOOP('',(#375,#376));
#378=FACE_OUTER_BOUND('',#377,.F.);
#379=ADVANCED_FACE('',(#378),#373,.F.);
#380=CARTESIAN_POINT('',(0.E0,0.E0,0.E0));
#381=DIRECTION('',(0.E0,0.E0,1.E0));
#382=DIRECTION('',(-1.E0,0.E0,0.E0));
#383=AXIS2_PLACEMENT_3D('',#380,#381,#382);
#384=CYLINDRICAL_SURFACE('',#383,1.415E0);
#385=ORIENTED_EDGE('',*,*,#374,.T.);
#386=ORIENTED_EDGE('',*,*,#364,.F.);
#387=ORIENTED_EDGE('',*,*,#345,.T.);
#388=ORIENTED_EDGE('',*,*,#361,.T.);
#389=EDGE_LOOP('',(#385,#386,#387,#388));
#390=FACE_OUTER_BOUND('',#389,.F.);
#391=ADVANCED_FACE('',(#390),#384,.T.);
#394=DIMENSIONAL_EXPONENTS(1.E0,0.E0,0.E0,0.E0,0.E0,0.E0,0.E0);
#396=LENGTH_MEASURE_WITH_UNIT(LENGTH_MEASURE(2.54E1),#395);
#397=(CONVERSION_BASED_UNIT('INCH',#396)LENGTH_UNIT()NAMED_UNIT(#394));
#398=DIMENSIONAL_EXPONENTS(0.E0,0.E0,0.E0,0.E0,0.E0,0.E0,0.E0);
#400=PLANE_ANGLE_MEASURE_WITH_UNIT(PLANE_ANGLE_MEASURE(1.745329251994E-2),#399);
#401=(CONVERSION_BASED_UNIT('DEGREE',#400)NAMED_UNIT(*)PLANE_ANGLE_UNIT());
#403=UNCERTAINTY_MEASURE_WITH_UNIT(LENGTH_MEASURE(4.927888204582E-4),#397,
'closure',
'Maximum model space distance between geometric entities at asserted connectivities');
#404=(GEOMETRIC_REPRESENTATION_CONTEXT(3)GLOBAL_UNCERTAINTY_ASSIGNED_CONTEXT((
#403))GLOBAL_UNIT_ASSIGNED_CONTEXT((#397,#401,#402))REPRESENTATION_CONTEXT
('ID1','3'));
#406=APPLICATION_CONTEXT(
'CONFIGURATION CONTROLLED 3D DESIGNS OF MECHANICAL PARTS AND ASSEMBLIES');
#407=APPLICATION_PROTOCOL_DEFINITION('international standard',
'config_control_design',1994,#406);
#408=DESIGN_CONTEXT('',#406,'design');
#409=MECHANICAL_CONTEXT('',#406,'mechanical');
#410=PRODUCT('MGAG-0036-BA','MGAG-0036-BA','NOT SPECIFIED',(#409));
#411=PRODUCT_DEFINITION_FORMATION_WITH_SPECIFIED_SOURCE('1','LAST_VERSION',#410,
.MADE.);
#415=PRODUCT_CATEGORY('part','');
#416=PRODUCT_RELATED_PRODUCT_CATEGORY('detail','',(#410));
#417=PRODUCT_CATEGORY_RELATIONSHIP('','',#415,#416);
#418=SECURITY_CLASSIFICATION_LEVEL('unclassified');
#419=SECURITY_CLASSIFICATION('','',#418);
#420=CC_DESIGN_SECURITY_CLASSIFICATION(#419,(#411));
#421=APPROVAL_STATUS('approved');
#422=APPROVAL(#421,'');
#423=CC_DESIGN_APPROVAL(#422,(#419,#411,#412));
#424=CALENDAR_DATE(123,13,11);
#425=COORDINATED_UNIVERSAL_TIME_OFFSET(5,0,.BEHIND.);
#426=LOCAL_TIME(10,14,5.E0,#425);
#427=DATE_AND_TIME(#424,#426);
#428=APPROVAL_DATE_TIME(#427,#422);
#429=DATE_TIME_ROLE('creation_date');
#430=CC_DESIGN_DATE_AND_TIME_ASSIGNMENT(#427,#429,(#412));
#431=DATE_TIME_ROLE('classification_date');
#432=CC_DESIGN_DATE_AND_TIME_ASSIGNMENT(#427,#431,(#419));
#433=PERSON('UNSPECIFIED','UNSPECIFIED',$,$,$,$);
#434=ORGANIZATION('UNSPECIFIED','UNSPECIFIED','UNSPECIFIED');
#435=PERSON_AND_ORGANIZATION(#433,#434);
#436=APPROVAL_ROLE('approver');
#437=APPROVAL_PERSON_ORGANIZATION(#435,#422,#436);
#438=PERSON_AND_ORGANIZATION_ROLE('creator');
#439=CC_DESIGN_PERSON_AND_ORGANIZATION_ASSIGNMENT(#435,#438,(#411,#412));
#440=PERSON_AND_ORGANIZATION_ROLE('design_supplier');
#441=CC_DESIGN_PERSON_AND_ORGANIZATION_ASSIGNMENT(#435,#440,(#411));
#442=PERSON_AND_ORGANIZATION_ROLE('classification_officer');
#443=CC_DESIGN_PERSON_AND_ORGANIZATION_ASSIGNMENT(#435,#442,(#419));
#444=PERSON_AND_ORGANIZATION_ROLE('design_owner');
#445=CC_DESIGN_PERSON_AND_ORGANIZATION_ASSIGNMENT(#435,#444,(#410));
#6=CIRCLE('',#5,2.481745190677E-1);
#11=CIRCLE('',#10,2.481745190677E-1);
#24=CIRCLE('',#23,2.7E-1);
#29=CIRCLE('',#28,2.7E-1);
#50=CIRCLE('',#49,1.325E0);
#67=CIRCLE('',#66,1.325E0);
#84=CIRCLE('',#83,1.325E0);
#89=CIRCLE('',#88,1.325E0);
#102=CIRCLE('',#101,1.325E0);
#107=CIRCLE('',#106,1.325E0);
#112=CIRCLE('',#111,1.415E0);
#117=CIRCLE('',#116,1.415E0);
#130=CIRCLE('',#129,1.415E0);
#135=CIRCLE('',#134,1.415E0);
#181=EDGE_CURVE('',#159,#155,#11,.T.);
#183=EDGE_CURVE('',#154,#155,#19,.T.);
#185=EDGE_CURVE('',#154,#158,#24,.T.);
#187=EDGE_CURVE('',#158,#159,#15,.T.);
#197=EDGE_CURVE('',#155,#159,#6,.T.);
#210=EDGE_CURVE('',#158,#154,#29,.T.);
#221=EDGE_CURVE('',#147,#139,#33,.T.);
#223=EDGE_CURVE('',#139,#142,#75,.T.);
#225=EDGE_CURVE('',#142,#150,#62,.T.);
#227=EDGE_CURVE('',#150,#147,#54,.T.);
#241=EDGE_CURVE('',#146,#138,#41,.T.);
#243=EDGE_CURVE('',#138,#139,#79,.T.);
#246=EDGE_CURVE('',#146,#147,#37,.T.);
#256=EDGE_CURVE('',#167,#163,#84,.T.);
#258=EDGE_CURVE('',#162,#163,#97,.T.);
#260=EDGE_CURVE('',#162,#166,#107,.T.);
#262=EDGE_CURVE('',#166,#167,#93,.T.);
#267=EDGE_CURVE('',#146,#151,#50,.T.);
#269=EDGE_CURVE('',#143,#151,#45,.T.);
#271=EDGE_CURVE('',#143,#138,#67,.T.);
#284=EDGE_CURVE('',#150,#151,#58,.T.);
#297=EDGE_CURVE('',#142,#143,#71,.T.);
#320=EDGE_CURVE('',#163,#167,#89,.T.);
#332=EDGE_CURVE('',#166,#162,#102,.T.);
#343=EDGE_CURVE('',#174,#170,#112,.T.);
#345=EDGE_CURVE('',#170,#174,#117,.T.);
#359=EDGE_CURVE('',#171,#175,#135,.T.);
#361=EDGE_CURVE('',#174,#175,#121,.T.);
#364=EDGE_CURVE('',#170,#171,#125,.T.);
#374=EDGE_CURVE('',#175,#171,#130,.T.);
#392=CLOSED_SHELL('',(#191,#202,#215,#235,#250,#275,#288,#301,#313,#324,#337,
#353,#368,#379,#391));
#393=MANIFOLD_SOLID_BREP('',#392);
#395=(LENGTH_UNIT()NAMED_UNIT(*)SI_UNIT(.MILLI.,.METRE.));
#399=(NAMED_UNIT(*)PLANE_ANGLE_UNIT()SI_UNIT($,.RADIAN.));
#402=(NAMED_UNIT(*)SI_UNIT($,.STERADIAN.)SOLID_ANGLE_UNIT());
#405=ADVANCED_BREP_SHAPE_REPRESENTATION('',(#393),#404);
#412=PRODUCT_DEFINITION('design','',#411,#408);
#413=PRODUCT_DEFINITION_SHAPE('','SHAPE FOR MGAG-0036-BA.',#412);
#414=SHAPE_DEFINITION_REPRESENTATION(#413,#405);
ENDSEC;
END-ISO-10303-21;
