ISO-10303-21;
HEADER;
FILE_DESCRIPTION((''),'2;1');
FILE_NAME('MGAG-0083-SA','2023-03-21T11:27:21',('cpichler'),(''),
'CREO PARAMETRIC BY PTC INC, 2022281','CREO PARAMETRIC BY PTC INC, 2022281','');
FILE_SCHEMA(('CONFIG_CONTROL_DESIGN'));
ENDSEC;
DATA;
#2=DIRECTION('',(-1.E0,0.E0,0.E0));
#3=VECTOR('',#2,3.45E-1);
#4=CARTESIAN_POINT('',(-1.4E-1,1.14E0,0.E0));
#5=LINE('',#4,#3);
#6=DIRECTION('',(1.E0,0.E0,0.E0));
#7=VECTOR('',#6,3.45E-1);
#8=CARTESIAN_POINT('',(-4.85E-1,-1.14E0,0.E0));
#9=LINE('',#8,#7);
#10=CARTESIAN_POINT('',(-4.85E-1,0.E0,0.E0));
#11=DIRECTION('',(-1.E0,0.E0,0.E0));
#12=DIRECTION('',(0.E0,1.E0,0.E0));
#13=AXIS2_PLACEMENT_3D('',#10,#11,#12);
#15=DIRECTION('',(-7.071067811865E-1,-7.071067811866E-1,0.E0));
#16=VECTOR('',#15,8.838834764832E-2);
#17=CARTESIAN_POINT('',(-4.85E-1,1.14E0,0.E0));
#18=LINE('',#17,#16);
#19=CARTESIAN_POINT('',(-4.85E-1,0.E0,0.E0));
#20=DIRECTION('',(-1.E0,0.E0,0.E0));
#21=DIRECTION('',(0.E0,-1.E0,0.E0));
#22=AXIS2_PLACEMENT_3D('',#19,#20,#21);
#24=DIRECTION('',(7.071067811865E-1,-7.071067811866E-1,0.E0));
#25=VECTOR('',#24,8.838834764832E-2);
#26=CARTESIAN_POINT('',(-5.475E-1,-1.0775E0,0.E0));
#27=LINE('',#26,#25);
#28=CARTESIAN_POINT('',(-5.475E-1,0.E0,0.E0));
#29=DIRECTION('',(-1.E0,0.E0,0.E0));
#30=DIRECTION('',(0.E0,-1.E0,0.E0));
#31=AXIS2_PLACEMENT_3D('',#28,#29,#30);
#33=CARTESIAN_POINT('',(-5.475E-1,0.E0,0.E0));
#34=DIRECTION('',(-1.E0,0.E0,0.E0));
#35=DIRECTION('',(0.E0,1.E0,0.E0));
#36=AXIS2_PLACEMENT_3D('',#33,#34,#35);
#38=CARTESIAN_POINT('',(-5.475E-1,0.E0,0.E0));
#39=DIRECTION('',(1.E0,0.E0,0.E0));
#40=DIRECTION('',(0.E0,1.E0,0.E0));
#41=AXIS2_PLACEMENT_3D('',#38,#39,#40);
#43=CARTESIAN_POINT('',(-5.475E-1,0.E0,0.E0));
#44=DIRECTION('',(1.E0,0.E0,0.E0));
#45=DIRECTION('',(0.E0,-1.E0,0.E0));
#46=AXIS2_PLACEMENT_3D('',#43,#44,#45);
#48=DIRECTION('',(-7.071067811865E-1,-7.071067811866E-1,0.E0));
#49=VECTOR('',#48,8.838834764832E-2);
#50=CARTESIAN_POINT('',(-5.475E-1,1.015E0,0.E0));
#51=LINE('',#50,#49);
#52=DIRECTION('',(7.071067811865E-1,-7.071067811866E-1,0.E0));
#53=VECTOR('',#52,8.838834764832E-2);
#54=CARTESIAN_POINT('',(-6.1E-1,-9.525E-1,0.E0));
#55=LINE('',#54,#53);
#56=CARTESIAN_POINT('',(-6.1E-1,0.E0,0.E0));
#57=DIRECTION('',(-1.E0,0.E0,0.E0));
#58=DIRECTION('',(0.E0,-1.E0,0.E0));
#59=AXIS2_PLACEMENT_3D('',#56,#57,#58);
#61=CARTESIAN_POINT('',(-6.1E-1,0.E0,0.E0));
#62=DIRECTION('',(-1.E0,0.E0,0.E0));
#63=DIRECTION('',(0.E0,1.E0,0.E0));
#64=AXIS2_PLACEMENT_3D('',#61,#62,#63);
#66=CARTESIAN_POINT('',(-1.4E-1,0.E0,0.E0));
#67=DIRECTION('',(1.E0,0.E0,0.E0));
#68=DIRECTION('',(0.E0,1.E0,0.E0));
#69=AXIS2_PLACEMENT_3D('',#66,#67,#68);
#71=CARTESIAN_POINT('',(-1.4E-1,0.E0,0.E0));
#72=DIRECTION('',(1.E0,0.E0,0.E0));
#73=DIRECTION('',(0.E0,-1.E0,0.E0));
#74=AXIS2_PLACEMENT_3D('',#71,#72,#73);
#76=CARTESIAN_POINT('',(-1.4E-1,0.E0,0.E0));
#77=DIRECTION('',(-1.E0,0.E0,0.E0));
#78=DIRECTION('',(0.E0,-1.E0,0.E0));
#79=AXIS2_PLACEMENT_3D('',#76,#77,#78);
#81=CARTESIAN_POINT('',(-1.4E-1,0.E0,0.E0));
#82=DIRECTION('',(-1.E0,0.E0,0.E0));
#83=DIRECTION('',(0.E0,1.E0,0.E0));
#84=AXIS2_PLACEMENT_3D('',#81,#82,#83);
#86=DIRECTION('',(-1.E0,0.E0,0.E0));
#87=VECTOR('',#86,7.5E-1);
#88=CARTESIAN_POINT('',(6.1E-1,1.0375E0,0.E0));
#89=LINE('',#88,#87);
#90=DIRECTION('',(1.E0,0.E0,0.E0));
#91=VECTOR('',#90,7.5E-1);
#92=CARTESIAN_POINT('',(-1.4E-1,-1.0375E0,0.E0));
#93=LINE('',#92,#91);
#94=DIRECTION('',(-1.E0,0.E0,0.E0));
#95=VECTOR('',#94,5.625E-1);
#96=CARTESIAN_POINT('',(5.1625E-1,-2.8125E-1,9.986514344355E-1));
#97=LINE('',#96,#95);
#98=DIRECTION('',(1.E0,0.E0,0.E0));
#99=VECTOR('',#98,5.625E-1);
#100=CARTESIAN_POINT('',(-4.625E-2,2.8125E-1,9.986514344355E-1));
#101=LINE('',#100,#99);
#102=CARTESIAN_POINT('',(6.1E-1,0.E0,0.E0));
#103=DIRECTION('',(1.E0,0.E0,0.E0));
#104=DIRECTION('',(0.E0,1.E0,0.E0));
#105=AXIS2_PLACEMENT_3D('',#102,#103,#104);
#107=CARTESIAN_POINT('',(6.1E-1,0.E0,0.E0));
#108=DIRECTION('',(1.E0,0.E0,0.E0));
#109=DIRECTION('',(0.E0,-1.E0,0.E0));
#110=AXIS2_PLACEMENT_3D('',#107,#108,#109);
#112=CARTESIAN_POINT('',(-4.625E-2,0.E0,0.E0));
#113=DIRECTION('',(1.E0,0.E0,0.E0));
#114=DIRECTION('',(0.E0,2.710843373494E-1,9.625555994559E-1));
#115=AXIS2_PLACEMENT_3D('',#112,#113,#114);
#117=DIRECTION('',(0.E0,0.E0,1.E0));
#118=VECTOR('',#117,4.313485655645E-1);
#119=CARTESIAN_POINT('',(-4.625E-2,-2.8125E-1,9.986514344355E-1));
#120=LINE('',#119,#118);
#121=DIRECTION('',(0.E0,0.E0,-1.E0));
#122=VECTOR('',#121,4.313485655645E-1);
#123=CARTESIAN_POINT('',(5.1625E-1,2.8125E-1,1.43E0));
#124=LINE('',#123,#122);
#125=DIRECTION('',(0.E0,0.E0,1.E0));
#126=VECTOR('',#125,4.313485655645E-1);
#127=CARTESIAN_POINT('',(-4.625E-2,2.8125E-1,9.986514344355E-1));
#128=LINE('',#127,#126);
#129=CARTESIAN_POINT('',(5.1625E-1,0.E0,0.E0));
#130=DIRECTION('',(-1.E0,0.E0,0.E0));
#131=DIRECTION('',(0.E0,-2.710843373494E-1,9.625555994559E-1));
#132=AXIS2_PLACEMENT_3D('',#129,#130,#131);
#134=DIRECTION('',(0.E0,0.E0,-1.E0));
#135=VECTOR('',#134,4.313485655645E-1);
#136=CARTESIAN_POINT('',(5.1625E-1,-2.8125E-1,1.43E0));
#137=LINE('',#136,#135);
#138=CARTESIAN_POINT('',(2.35E-1,0.E0,1.43E0));
#139=DIRECTION('',(0.E0,0.E0,-1.E0));
#140=DIRECTION('',(0.E0,-1.E0,0.E0));
#141=AXIS2_PLACEMENT_3D('',#138,#139,#140);
#143=DIRECTION('',(1.E0,0.E0,0.E0));
#144=VECTOR('',#143,2.8125E-1);
#145=CARTESIAN_POINT('',(-4.625E-2,-2.8125E-1,1.43E0));
#146=LINE('',#145,#144);
#147=DIRECTION('',(-1.122558836010E-14,-1.E0,0.E0));
#148=VECTOR('',#147,2.8125E-1);
#149=CARTESIAN_POINT('',(-4.625E-2,0.E0,1.43E0));
#150=LINE('',#149,#148);
#151=DIRECTION('',(3.489949670250E-2,0.E0,-9.993908270191E-1));
#152=VECTOR('',#151,5.403291539214E-1);
#153=CARTESIAN_POINT('',(4.973927844745E-1,0.E0,1.97E0));
#154=LINE('',#153,#152);
#155=DIRECTION('',(3.489949670250E-2,0.E0,9.993908270191E-1));
#156=VECTOR('',#155,5.403291539214E-1);
#157=CARTESIAN_POINT('',(-4.625E-2,0.E0,1.43E0));
#158=LINE('',#157,#156);
#159=CARTESIAN_POINT('',(2.35E-1,0.E0,1.97E0));
#160=DIRECTION('',(0.E0,0.E0,1.E0));
#161=DIRECTION('',(-1.E0,0.E0,0.E0));
#162=AXIS2_PLACEMENT_3D('',#159,#160,#161);
#164=CARTESIAN_POINT('',(2.35E-1,0.E0,1.97E0));
#165=DIRECTION('',(0.E0,0.E0,1.E0));
#166=DIRECTION('',(1.E0,0.E0,0.E0));
#167=AXIS2_PLACEMENT_3D('',#164,#165,#166);
#169=CARTESIAN_POINT('',(2.35E-1,0.E0,1.43E0));
#170=DIRECTION('',(0.E0,0.E0,-1.E0));
#171=DIRECTION('',(-1.E0,0.E0,0.E0));
#172=AXIS2_PLACEMENT_3D('',#169,#170,#171);
#174=DIRECTION('',(1.134894647395E-14,-1.E0,0.E0));
#175=VECTOR('',#174,2.8125E-1);
#176=CARTESIAN_POINT('',(-4.625E-2,2.8125E-1,1.43E0));
#177=LINE('',#176,#175);
#178=DIRECTION('',(-1.E0,0.E0,0.E0));
#179=VECTOR('',#178,2.8125E-1);
#180=CARTESIAN_POINT('',(2.35E-1,2.8125E-1,1.43E0));
#181=LINE('',#180,#179);
#182=CARTESIAN_POINT('',(2.35E-1,0.E0,1.43E0));
#183=DIRECTION('',(0.E0,0.E0,-1.E0));
#184=DIRECTION('',(0.E0,1.E0,0.E0));
#185=AXIS2_PLACEMENT_3D('',#182,#183,#184);
#187=DIRECTION('',(-1.E0,0.E0,0.E0));
#188=VECTOR('',#187,2.8125E-1);
#189=CARTESIAN_POINT('',(5.1625E-1,2.8125E-1,1.43E0));
#190=LINE('',#189,#188);
#191=DIRECTION('',(1.065814103640E-14,1.E0,0.E0));
#192=VECTOR('',#191,2.8125E-1);
#193=CARTESIAN_POINT('',(5.1625E-1,0.E0,1.43E0));
#194=LINE('',#193,#192);
#195=CARTESIAN_POINT('',(2.35E-1,0.E0,1.43E0));
#196=DIRECTION('',(0.E0,0.E0,-1.E0));
#197=DIRECTION('',(1.E0,0.E0,0.E0));
#198=AXIS2_PLACEMENT_3D('',#195,#196,#197);
#200=DIRECTION('',(-1.065814103640E-14,1.E0,0.E0));
#201=VECTOR('',#200,2.8125E-1);
#202=CARTESIAN_POINT('',(5.1625E-1,-2.8125E-1,1.43E0));
#203=LINE('',#202,#201);
#204=DIRECTION('',(1.E0,0.E0,0.E0));
#205=VECTOR('',#204,2.8125E-1);
#206=CARTESIAN_POINT('',(2.35E-1,-2.8125E-1,1.43E0));
#207=LINE('',#206,#205);
#208=CARTESIAN_POINT('',(-1.4E-1,1.14E0,0.E0));
#209=CARTESIAN_POINT('',(-4.85E-1,1.14E0,0.E0));
#210=VERTEX_POINT('',#208);
#211=VERTEX_POINT('',#209);
#212=CARTESIAN_POINT('',(-5.475E-1,1.0775E0,0.E0));
#213=VERTEX_POINT('',#212);
#214=CARTESIAN_POINT('',(-4.85E-1,-1.14E0,0.E0));
#215=VERTEX_POINT('',#214);
#216=CARTESIAN_POINT('',(-1.4E-1,-1.14E0,0.E0));
#217=VERTEX_POINT('',#216);
#218=CARTESIAN_POINT('',(-5.475E-1,1.015E0,0.E0));
#219=CARTESIAN_POINT('',(-6.1E-1,9.525E-1,0.E0));
#220=VERTEX_POINT('',#218);
#221=VERTEX_POINT('',#219);
#222=CARTESIAN_POINT('',(-5.475E-1,-1.0775E0,0.E0));
#223=VERTEX_POINT('',#222);
#224=CARTESIAN_POINT('',(6.1E-1,1.0375E0,0.E0));
#225=CARTESIAN_POINT('',(-1.4E-1,1.0375E0,0.E0));
#226=VERTEX_POINT('',#224);
#227=VERTEX_POINT('',#225);
#228=CARTESIAN_POINT('',(-6.1E-1,-9.525E-1,0.E0));
#229=VERTEX_POINT('',#228);
#230=CARTESIAN_POINT('',(-5.475E-1,-1.015E0,0.E0));
#231=VERTEX_POINT('',#230);
#232=CARTESIAN_POINT('',(4.973927844745E-1,0.E0,1.97E0));
#233=CARTESIAN_POINT('',(5.1625E-1,0.E0,1.43E0));
#234=VERTEX_POINT('',#232);
#235=VERTEX_POINT('',#233);
#236=CARTESIAN_POINT('',(-4.625E-2,2.8125E-1,9.986514344355E-1));
#237=CARTESIAN_POINT('',(-4.625E-2,-2.8125E-1,9.986514344355E-1));
#238=VERTEX_POINT('',#236);
#239=VERTEX_POINT('',#237);
#240=CARTESIAN_POINT('',(-1.4E-1,-1.0375E0,0.E0));
#241=VERTEX_POINT('',#240);
#242=CARTESIAN_POINT('',(6.1E-1,-1.0375E0,0.E0));
#243=VERTEX_POINT('',#242);
#244=CARTESIAN_POINT('',(2.35E-1,2.8125E-1,1.43E0));
#245=VERTEX_POINT('',#244);
#246=CARTESIAN_POINT('',(-2.739278447445E-2,0.E0,1.97E0));
#247=VERTEX_POINT('',#246);
#248=CARTESIAN_POINT('',(5.1625E-1,2.8125E-1,9.986514344355E-1));
#249=VERTEX_POINT('',#248);
#250=CARTESIAN_POINT('',(5.1625E-1,-2.8125E-1,9.986514344355E-1));
#251=VERTEX_POINT('',#250);
#252=CARTESIAN_POINT('',(2.35E-1,-2.8125E-1,1.43E0));
#253=VERTEX_POINT('',#252);
#254=CARTESIAN_POINT('',(-4.624999999999E-2,0.E0,1.43E0));
#255=VERTEX_POINT('',#254);
#256=CARTESIAN_POINT('',(-4.625E-2,-2.8125E-1,1.43E0));
#257=VERTEX_POINT('',#256);
#258=CARTESIAN_POINT('',(-4.625E-2,2.8125E-1,1.43E0));
#259=VERTEX_POINT('',#258);
#260=CARTESIAN_POINT('',(5.1625E-1,2.8125E-1,1.43E0));
#261=VERTEX_POINT('',#260);
#262=CARTESIAN_POINT('',(5.1625E-1,-2.8125E-1,1.43E0));
#263=VERTEX_POINT('',#262);
#264=CARTESIAN_POINT('',(-3.125E-1,0.E0,0.E0));
#265=DIRECTION('',(1.E0,0.E0,0.E0));
#266=DIRECTION('',(0.E0,1.E0,0.E0));
#267=AXIS2_PLACEMENT_3D('',#264,#265,#266);
#268=CYLINDRICAL_SURFACE('',#267,1.14E0);
#270=ORIENTED_EDGE('',*,*,#269,.F.);
#272=ORIENTED_EDGE('',*,*,#271,.T.);
#274=ORIENTED_EDGE('',*,*,#273,.F.);
#276=ORIENTED_EDGE('',*,*,#275,.T.);
#277=EDGE_LOOP('',(#270,#272,#274,#276));
#278=FACE_OUTER_BOUND('',#277,.F.);
#279=ADVANCED_FACE('',(#278),#268,.T.);
#280=CARTESIAN_POINT('',(-3.125E-1,0.E0,0.E0));
#281=DIRECTION('',(1.E0,0.E0,0.E0));
#282=DIRECTION('',(0.E0,1.E0,0.E0));
#283=AXIS2_PLACEMENT_3D('',#280,#281,#282);
#284=CYLINDRICAL_SURFACE('',#283,1.14E0);
#285=ORIENTED_EDGE('',*,*,#269,.T.);
#287=ORIENTED_EDGE('',*,*,#286,.T.);
#288=ORIENTED_EDGE('',*,*,#273,.T.);
#290=ORIENTED_EDGE('',*,*,#289,.T.);
#291=EDGE_LOOP('',(#285,#287,#288,#290));
#292=FACE_OUTER_BOUND('',#291,.F.);
#293=ADVANCED_FACE('',(#292),#284,.T.);
#294=CARTESIAN_POINT('',(-5.1625E-1,0.E0,0.E0));
#295=DIRECTION('',(1.E0,0.E0,0.E0));
#296=DIRECTION('',(0.E0,1.E0,0.E0));
#297=AXIS2_PLACEMENT_3D('',#294,#295,#296);
#298=CONICAL_SURFACE('',#297,1.10875E0,4.5E1);
#300=ORIENTED_EDGE('',*,*,#299,.T.);
#302=ORIENTED_EDGE('',*,*,#301,.T.);
#304=ORIENTED_EDGE('',*,*,#303,.T.);
#305=ORIENTED_EDGE('',*,*,#286,.F.);
#306=EDGE_LOOP('',(#300,#302,#304,#305));
#307=FACE_OUTER_BOUND('',#306,.F.);
#308=ADVANCED_FACE('',(#307),#298,.T.);
#309=CARTESIAN_POINT('',(-5.1625E-1,0.E0,0.E0));
#310=DIRECTION('',(1.E0,0.E0,0.E0));
#311=DIRECTION('',(0.E0,1.E0,0.E0));
#312=AXIS2_PLACEMENT_3D('',#309,#310,#311);
#313=CONICAL_SURFACE('',#312,1.10875E0,4.5E1);
#314=ORIENTED_EDGE('',*,*,#299,.F.);
#315=ORIENTED_EDGE('',*,*,#275,.F.);
#316=ORIENTED_EDGE('',*,*,#303,.F.);
#318=ORIENTED_EDGE('',*,*,#317,.T.);
#319=EDGE_LOOP('',(#314,#315,#316,#318));
#320=FACE_OUTER_BOUND('',#319,.F.);
#321=ADVANCED_FACE('',(#320),#313,.T.);
#322=CARTESIAN_POINT('',(-5.475E-1,1.04625E0,0.E0));
#323=DIRECTION('',(-1.E0,0.E0,0.E0));
#324=DIRECTION('',(0.E0,0.E0,1.E0));
#325=AXIS2_PLACEMENT_3D('',#322,#323,#324);
#326=PLANE('',#325);
#327=ORIENTED_EDGE('',*,*,#317,.F.);
#328=ORIENTED_EDGE('',*,*,#301,.F.);
#329=EDGE_LOOP('',(#327,#328));
#330=FACE_OUTER_BOUND('',#329,.F.);
#332=ORIENTED_EDGE('',*,*,#331,.F.);
#334=ORIENTED_EDGE('',*,*,#333,.F.);
#335=EDGE_LOOP('',(#332,#334));
#336=FACE_BOUND('',#335,.F.);
#337=ADVANCED_FACE('',(#330,#336),#326,.T.);
#338=CARTESIAN_POINT('',(-5.7875E-1,0.E0,0.E0));
#339=DIRECTION('',(1.E0,0.E0,0.E0));
#340=DIRECTION('',(0.E0,1.E0,0.E0));
#341=AXIS2_PLACEMENT_3D('',#338,#339,#340);
#342=CONICAL_SURFACE('',#341,9.8375E-1,4.5E1);
#344=ORIENTED_EDGE('',*,*,#343,.F.);
#345=ORIENTED_EDGE('',*,*,#331,.T.);
#347=ORIENTED_EDGE('',*,*,#346,.F.);
#349=ORIENTED_EDGE('',*,*,#348,.T.);
#350=EDGE_LOOP('',(#344,#345,#347,#349));
#351=FACE_OUTER_BOUND('',#350,.F.);
#352=ADVANCED_FACE('',(#351),#342,.T.);
#353=CARTESIAN_POINT('',(-5.7875E-1,0.E0,0.E0));
#354=DIRECTION('',(1.E0,0.E0,0.E0));
#355=DIRECTION('',(0.E0,1.E0,0.E0));
#356=AXIS2_PLACEMENT_3D('',#353,#354,#355);
#357=CONICAL_SURFACE('',#356,9.8375E-1,4.5E1);
#358=ORIENTED_EDGE('',*,*,#343,.T.);
#360=ORIENTED_EDGE('',*,*,#359,.T.);
#361=ORIENTED_EDGE('',*,*,#346,.T.);
#362=ORIENTED_EDGE('',*,*,#333,.T.);
#363=EDGE_LOOP('',(#358,#360,#361,#362));
#364=FACE_OUTER_BOUND('',#363,.F.);
#365=ADVANCED_FACE('',(#364),#357,.T.);
#366=CARTESIAN_POINT('',(-6.1E-1,4.7625E-1,0.E0));
#367=DIRECTION('',(-1.E0,0.E0,0.E0));
#368=DIRECTION('',(0.E0,0.E0,1.E0));
#369=AXIS2_PLACEMENT_3D('',#366,#367,#368);
#370=PLANE('',#369);
#371=ORIENTED_EDGE('',*,*,#348,.F.);
#372=ORIENTED_EDGE('',*,*,#359,.F.);
#373=EDGE_LOOP('',(#371,#372));
#374=FACE_OUTER_BOUND('',#373,.F.);
#375=ADVANCED_FACE('',(#374),#370,.T.);
#376=CARTESIAN_POINT('',(-1.4E-1,1.08875E0,0.E0));
#377=DIRECTION('',(1.E0,0.E0,0.E0));
#378=DIRECTION('',(0.E0,0.E0,-1.E0));
#379=AXIS2_PLACEMENT_3D('',#376,#377,#378);
#380=PLANE('',#379);
#381=ORIENTED_EDGE('',*,*,#271,.F.);
#382=ORIENTED_EDGE('',*,*,#289,.F.);
#383=EDGE_LOOP('',(#381,#382));
#384=FACE_OUTER_BOUND('',#383,.F.);
#386=ORIENTED_EDGE('',*,*,#385,.F.);
#388=ORIENTED_EDGE('',*,*,#387,.F.);
#389=EDGE_LOOP('',(#386,#388));
#390=FACE_BOUND('',#389,.F.);
#391=ADVANCED_FACE('',(#384,#390),#380,.T.);
#392=CARTESIAN_POINT('',(2.35E-1,0.E0,0.E0));
#393=DIRECTION('',(1.E0,0.E0,0.E0));
#394=DIRECTION('',(0.E0,1.E0,0.E0));
#395=AXIS2_PLACEMENT_3D('',#392,#393,#394);
#396=CYLINDRICAL_SURFACE('',#395,1.0375E0);
#398=ORIENTED_EDGE('',*,*,#397,.F.);
#400=ORIENTED_EDGE('',*,*,#399,.T.);
#402=ORIENTED_EDGE('',*,*,#401,.F.);
#403=ORIENTED_EDGE('',*,*,#385,.T.);
#404=EDGE_LOOP('',(#398,#400,#402,#403));
#405=FACE_OUTER_BOUND('',#404,.F.);
#407=ORIENTED_EDGE('',*,*,#406,.T.);
#409=ORIENTED_EDGE('',*,*,#408,.F.);
#411=ORIENTED_EDGE('',*,*,#410,.T.);
#413=ORIENTED_EDGE('',*,*,#412,.F.);
#414=EDGE_LOOP('',(#407,#409,#411,#413));
#415=FACE_BOUND('',#414,.F.);
#416=ADVANCED_FACE('',(#405,#415),#396,.T.);
#417=CARTESIAN_POINT('',(2.35E-1,0.E0,0.E0));
#418=DIRECTION('',(1.E0,0.E0,0.E0));
#419=DIRECTION('',(0.E0,1.E0,0.E0));
#420=AXIS2_PLACEMENT_3D('',#417,#418,#419);
#421=CYLINDRICAL_SURFACE('',#420,1.0375E0);
#422=ORIENTED_EDGE('',*,*,#397,.T.);
#423=ORIENTED_EDGE('',*,*,#387,.T.);
#424=ORIENTED_EDGE('',*,*,#401,.T.);
#426=ORIENTED_EDGE('',*,*,#425,.T.);
#427=EDGE_LOOP('',(#422,#423,#424,#426));
#428=FACE_OUTER_BOUND('',#427,.F.);
#429=ADVANCED_FACE('',(#428),#421,.T.);
#430=CARTESIAN_POINT('',(6.1E-1,5.1875E-1,0.E0));
#431=DIRECTION('',(1.E0,0.E0,0.E0));
#432=DIRECTION('',(0.E0,0.E0,-1.E0));
#433=AXIS2_PLACEMENT_3D('',#430,#431,#432);
#434=PLANE('',#433);
#435=ORIENTED_EDGE('',*,*,#399,.F.);
#436=ORIENTED_EDGE('',*,*,#425,.F.);
#437=EDGE_LOOP('',(#435,#436));
#438=FACE_OUTER_BOUND('',#437,.F.);
#439=ADVANCED_FACE('',(#438),#434,.T.);
#440=CARTESIAN_POINT('',(-4.625E-2,-2.8125E-1,0.E0));
#441=DIRECTION('',(-1.E0,0.E0,0.E0));
#442=DIRECTION('',(0.E0,0.E0,1.E0));
#443=AXIS2_PLACEMENT_3D('',#440,#441,#442);
#444=PLANE('',#443);
#445=ORIENTED_EDGE('',*,*,#406,.F.);
#447=ORIENTED_EDGE('',*,*,#446,.T.);
#449=ORIENTED_EDGE('',*,*,#448,.T.);
#451=ORIENTED_EDGE('',*,*,#450,.T.);
#453=ORIENTED_EDGE('',*,*,#452,.F.);
#454=EDGE_LOOP('',(#445,#447,#449,#451,#453));
#455=FACE_OUTER_BOUND('',#454,.F.);
#456=ADVANCED_FACE('',(#455),#444,.T.);
#457=CARTESIAN_POINT('',(-4.625E-2,2.8125E-1,0.E0));
#458=DIRECTION('',(0.E0,1.E0,0.E0));
#459=DIRECTION('',(0.E0,0.E0,1.E0));
#460=AXIS2_PLACEMENT_3D('',#457,#458,#459);
#461=PLANE('',#460);
#462=ORIENTED_EDGE('',*,*,#412,.T.);
#464=ORIENTED_EDGE('',*,*,#463,.F.);
#466=ORIENTED_EDGE('',*,*,#465,.T.);
#468=ORIENTED_EDGE('',*,*,#467,.T.);
#469=ORIENTED_EDGE('',*,*,#446,.F.);
#470=EDGE_LOOP('',(#462,#464,#466,#468,#469));
#471=FACE_OUTER_BOUND('',#470,.F.);
#472=ADVANCED_FACE('',(#471),#461,.T.);
#473=CARTESIAN_POINT('',(5.1625E-1,2.8125E-1,0.E0));
#474=DIRECTION('',(1.E0,0.E0,0.E0));
#475=DIRECTION('',(0.E0,0.E0,-1.E0));
#476=AXIS2_PLACEMENT_3D('',#473,#474,#475);
#477=PLANE('',#476);
#478=ORIENTED_EDGE('',*,*,#410,.F.);
#480=ORIENTED_EDGE('',*,*,#479,.F.);
#482=ORIENTED_EDGE('',*,*,#481,.T.);
#484=ORIENTED_EDGE('',*,*,#483,.T.);
#485=ORIENTED_EDGE('',*,*,#463,.T.);
#486=EDGE_LOOP('',(#478,#480,#482,#484,#485));
#487=FACE_OUTER_BOUND('',#486,.F.);
#488=ADVANCED_FACE('',(#487),#477,.T.);
#489=CARTESIAN_POINT('',(5.1625E-1,-2.8125E-1,0.E0));
#490=DIRECTION('',(0.E0,-1.E0,0.E0));
#491=DIRECTION('',(0.E0,0.E0,-1.E0));
#492=AXIS2_PLACEMENT_3D('',#489,#490,#491);
#493=PLANE('',#492);
#494=ORIENTED_EDGE('',*,*,#408,.T.);
#495=ORIENTED_EDGE('',*,*,#452,.T.);
#497=ORIENTED_EDGE('',*,*,#496,.T.);
#499=ORIENTED_EDGE('',*,*,#498,.T.);
#500=ORIENTED_EDGE('',*,*,#479,.T.);
#501=EDGE_LOOP('',(#494,#495,#497,#499,#500));
#502=FACE_OUTER_BOUND('',#501,.F.);
#503=ADVANCED_FACE('',(#502),#493,.T.);
#504=CARTESIAN_POINT('',(-4.625E-2,-2.8125E-1,1.43E0));
#505=DIRECTION('',(0.E0,0.E0,-1.E0));
#506=DIRECTION('',(-1.E0,0.E0,0.E0));
#507=AXIS2_PLACEMENT_3D('',#504,#505,#506);
#508=PLANE('',#507);
#510=ORIENTED_EDGE('',*,*,#509,.F.);
#511=ORIENTED_EDGE('',*,*,#496,.F.);
#512=ORIENTED_EDGE('',*,*,#450,.F.);
#513=EDGE_LOOP('',(#510,#511,#512));
#514=FACE_OUTER_BOUND('',#513,.F.);
#515=ADVANCED_FACE('',(#514),#508,.F.);
#516=CARTESIAN_POINT('',(2.35E-1,0.E0,1.7E0));
#517=DIRECTION('',(0.E0,0.E0,-1.E0));
#518=DIRECTION('',(1.E0,0.E0,0.E0));
#519=AXIS2_PLACEMENT_3D('',#516,#517,#518);
#520=CONICAL_SURFACE('',#519,2.718213922372E-1,2.E0);
#522=ORIENTED_EDGE('',*,*,#521,.T.);
#524=ORIENTED_EDGE('',*,*,#523,.T.);
#525=ORIENTED_EDGE('',*,*,#509,.T.);
#527=ORIENTED_EDGE('',*,*,#526,.T.);
#529=ORIENTED_EDGE('',*,*,#528,.T.);
#530=EDGE_LOOP('',(#522,#524,#525,#527,#529));
#531=FACE_OUTER_BOUND('',#530,.F.);
#532=ADVANCED_FACE('',(#531),#520,.T.);
#533=CARTESIAN_POINT('',(2.35E-1,0.E0,1.7E0));
#534=DIRECTION('',(0.E0,0.E0,-1.E0));
#535=DIRECTION('',(1.E0,0.E0,0.E0));
#536=AXIS2_PLACEMENT_3D('',#533,#534,#535);
#537=CONICAL_SURFACE('',#536,2.718213922372E-1,2.E0);
#538=ORIENTED_EDGE('',*,*,#521,.F.);
#540=ORIENTED_EDGE('',*,*,#539,.T.);
#541=ORIENTED_EDGE('',*,*,#526,.F.);
#543=ORIENTED_EDGE('',*,*,#542,.T.);
#545=ORIENTED_EDGE('',*,*,#544,.T.);
#546=EDGE_LOOP('',(#538,#540,#541,#543,#545));
#547=FACE_OUTER_BOUND('',#546,.F.);
#548=ADVANCED_FACE('',(#547),#537,.T.);
#549=CARTESIAN_POINT('',(5.1625E-1,0.E0,1.97E0));
#550=DIRECTION('',(0.E0,0.E0,1.E0));
#551=DIRECTION('',(1.E0,0.E0,0.E0));
#552=AXIS2_PLACEMENT_3D('',#549,#550,#551);
#553=PLANE('',#552);
#554=ORIENTED_EDGE('',*,*,#528,.F.);
#555=ORIENTED_EDGE('',*,*,#539,.F.);
#556=EDGE_LOOP('',(#554,#555));
#557=FACE_OUTER_BOUND('',#556,.F.);
#558=ADVANCED_FACE('',(#557),#553,.T.);
#559=CARTESIAN_POINT('',(-4.625E-2,-2.8125E-1,1.43E0));
#560=DIRECTION('',(0.E0,0.E0,-1.E0));
#561=DIRECTION('',(-1.E0,0.E0,0.E0));
#562=AXIS2_PLACEMENT_3D('',#559,#560,#561);
#563=PLANE('',#562);
#564=ORIENTED_EDGE('',*,*,#542,.F.);
#565=ORIENTED_EDGE('',*,*,#448,.F.);
#566=ORIENTED_EDGE('',*,*,#467,.F.);
#567=EDGE_LOOP('',(#564,#565,#566));
#568=FACE_OUTER_BOUND('',#567,.F.);
#569=ADVANCED_FACE('',(#568),#563,.F.);
#570=CARTESIAN_POINT('',(-4.625E-2,-2.8125E-1,1.43E0));
#571=DIRECTION('',(0.E0,0.E0,-1.E0));
#572=DIRECTION('',(-1.E0,0.E0,0.E0));
#573=AXIS2_PLACEMENT_3D('',#570,#571,#572);
#574=PLANE('',#573);
#575=ORIENTED_EDGE('',*,*,#544,.F.);
#576=ORIENTED_EDGE('',*,*,#465,.F.);
#577=ORIENTED_EDGE('',*,*,#483,.F.);
#578=EDGE_LOOP('',(#575,#576,#577));
#579=FACE_OUTER_BOUND('',#578,.F.);
#580=ADVANCED_FACE('',(#579),#574,.F.);
#581=CARTESIAN_POINT('',(-4.625E-2,-2.8125E-1,1.43E0));
#582=DIRECTION('',(0.E0,0.E0,-1.E0));
#583=DIRECTION('',(-1.E0,0.E0,0.E0));
#584=AXIS2_PLACEMENT_3D('',#581,#582,#583);
#585=PLANE('',#584);
#586=ORIENTED_EDGE('',*,*,#523,.F.);
#587=ORIENTED_EDGE('',*,*,#481,.F.);
#588=ORIENTED_EDGE('',*,*,#498,.F.);
#589=EDGE_LOOP('',(#586,#587,#588));
#590=FACE_OUTER_BOUND('',#589,.F.);
#591=ADVANCED_FACE('',(#590),#585,.F.);
#594=DIMENSIONAL_EXPONENTS(1.E0,0.E0,0.E0,0.E0,0.E0,0.E0,0.E0);
#596=LENGTH_MEASURE_WITH_UNIT(LENGTH_MEASURE(2.54E1),#595);
#597=(CONVERSION_BASED_UNIT('INCH',#596)LENGTH_UNIT()NAMED_UNIT(#594));
#598=DIMENSIONAL_EXPONENTS(0.E0,0.E0,0.E0,0.E0,0.E0,0.E0,0.E0);
#600=PLANE_ANGLE_MEASURE_WITH_UNIT(PLANE_ANGLE_MEASURE(1.745329251994E-2),#599);
#601=(CONVERSION_BASED_UNIT('DEGREE',#600)NAMED_UNIT(*)PLANE_ANGLE_UNIT());
#603=UNCERTAINTY_MEASURE_WITH_UNIT(LENGTH_MEASURE(4.044451917649E-4),#597,
'closure',
'Maximum model space distance between geometric entities at asserted connectivities');
#604=(GEOMETRIC_REPRESENTATION_CONTEXT(3)GLOBAL_UNCERTAINTY_ASSIGNED_CONTEXT((
#603))GLOBAL_UNIT_ASSIGNED_CONTEXT((#597,#601,#602))REPRESENTATION_CONTEXT
('ID1','3'));
#606=APPLICATION_CONTEXT(
'CONFIGURATION CONTROLLED 3D DESIGNS OF MECHANICAL PARTS AND ASSEMBLIES');
#607=APPLICATION_PROTOCOL_DEFINITION('international standard',
'config_control_design',1994,#606);
#608=DESIGN_CONTEXT('',#606,'design');
#609=MECHANICAL_CONTEXT('',#606,'mechanical');
#610=PRODUCT('MGAG-0083-SA','MGAG-0083-SA','NOT SPECIFIED',(#609));
#611=PRODUCT_DEFINITION_FORMATION_WITH_SPECIFIED_SOURCE('1','LAST_VERSION',#610,
.MADE.);
#615=PRODUCT_CATEGORY('part','');
#616=PRODUCT_RELATED_PRODUCT_CATEGORY('detail','',(#610));
#617=PRODUCT_CATEGORY_RELATIONSHIP('','',#615,#616);
#618=SECURITY_CLASSIFICATION_LEVEL('unclassified');
#619=SECURITY_CLASSIFICATION('','',#618);
#620=CC_DESIGN_SECURITY_CLASSIFICATION(#619,(#611));
#621=APPROVAL_STATUS('approved');
#622=APPROVAL(#621,'');
#623=CC_DESIGN_APPROVAL(#622,(#619,#611,#612));
#624=CALENDAR_DATE(123,21,3);
#625=COORDINATED_UNIVERSAL_TIME_OFFSET(4,0,.BEHIND.);
#626=LOCAL_TIME(11,27,2.1E1,#625);
#627=DATE_AND_TIME(#624,#626);
#628=APPROVAL_DATE_TIME(#627,#622);
#629=DATE_TIME_ROLE('creation_date');
#630=CC_DESIGN_DATE_AND_TIME_ASSIGNMENT(#627,#629,(#612));
#631=DATE_TIME_ROLE('classification_date');
#632=CC_DESIGN_DATE_AND_TIME_ASSIGNMENT(#627,#631,(#619));
#633=PERSON('UNSPECIFIED','UNSPECIFIED',$,$,$,$);
#634=ORGANIZATION('UNSPECIFIED','UNSPECIFIED','UNSPECIFIED');
#635=PERSON_AND_ORGANIZATION(#633,#634);
#636=APPROVAL_ROLE('approver');
#637=APPROVAL_PERSON_ORGANIZATION(#635,#622,#636);
#638=PERSON_AND_ORGANIZATION_ROLE('creator');
#639=CC_DESIGN_PERSON_AND_ORGANIZATION_ASSIGNMENT(#635,#638,(#611,#612));
#640=PERSON_AND_ORGANIZATION_ROLE('design_supplier');
#641=CC_DESIGN_PERSON_AND_ORGANIZATION_ASSIGNMENT(#635,#640,(#611));
#642=PERSON_AND_ORGANIZATION_ROLE('classification_officer');
#643=CC_DESIGN_PERSON_AND_ORGANIZATION_ASSIGNMENT(#635,#642,(#619));
#644=PERSON_AND_ORGANIZATION_ROLE('design_owner');
#645=CC_DESIGN_PERSON_AND_ORGANIZATION_ASSIGNMENT(#635,#644,(#610));
#14=CIRCLE('',#13,1.14E0);
#23=CIRCLE('',#22,1.14E0);
#32=CIRCLE('',#31,1.0775E0);
#37=CIRCLE('',#36,1.0775E0);
#42=CIRCLE('',#41,1.015E0);
#47=CIRCLE('',#46,1.015E0);
#60=CIRCLE('',#59,9.525E-1);
#65=CIRCLE('',#64,9.525E-1);
#70=CIRCLE('',#69,1.14E0);
#75=CIRCLE('',#74,1.14E0);
#80=CIRCLE('',#79,1.0375E0);
#85=CIRCLE('',#84,1.0375E0);
#106=CIRCLE('',#105,1.0375E0);
#111=CIRCLE('',#110,1.0375E0);
#116=CIRCLE('',#115,1.0375E0);
#133=CIRCLE('',#132,1.0375E0);
#142=CIRCLE('',#141,2.8125E-1);
#163=CIRCLE('',#162,2.623927844744E-1);
#168=CIRCLE('',#167,2.623927844744E-1);
#173=CIRCLE('',#172,2.8125E-1);
#186=CIRCLE('',#185,2.8125E-1);
#199=CIRCLE('',#198,2.8125E-1);
#269=EDGE_CURVE('',#210,#211,#5,.T.);
#271=EDGE_CURVE('',#210,#217,#70,.T.);
#273=EDGE_CURVE('',#215,#217,#9,.T.);
#275=EDGE_CURVE('',#215,#211,#23,.T.);
#286=EDGE_CURVE('',#211,#215,#14,.T.);
#289=EDGE_CURVE('',#217,#210,#75,.T.);
#299=EDGE_CURVE('',#211,#213,#18,.T.);
#301=EDGE_CURVE('',#213,#223,#37,.T.);
#303=EDGE_CURVE('',#223,#215,#27,.T.);
#317=EDGE_CURVE('',#223,#213,#32,.T.);
#331=EDGE_CURVE('',#220,#231,#42,.T.);
#333=EDGE_CURVE('',#231,#220,#47,.T.);
#343=EDGE_CURVE('',#220,#221,#51,.T.);
#346=EDGE_CURVE('',#229,#231,#55,.T.);
#348=EDGE_CURVE('',#229,#221,#60,.T.);
#359=EDGE_CURVE('',#221,#229,#65,.T.);
#385=EDGE_CURVE('',#241,#227,#80,.T.);
#387=EDGE_CURVE('',#227,#241,#85,.T.);
#397=EDGE_CURVE('',#226,#227,#89,.T.);
#399=EDGE_CURVE('',#226,#243,#106,.T.);
#401=EDGE_CURVE('',#241,#243,#93,.T.);
#406=EDGE_CURVE('',#238,#239,#116,.T.);
#408=EDGE_CURVE('',#251,#239,#97,.T.);
#410=EDGE_CURVE('',#251,#249,#133,.T.);
#412=EDGE_CURVE('',#238,#249,#101,.T.);
#425=EDGE_CURVE('',#243,#226,#111,.T.);
#446=EDGE_CURVE('',#238,#259,#128,.T.);
#448=EDGE_CURVE('',#259,#255,#177,.T.);
#450=EDGE_CURVE('',#255,#257,#150,.T.);
#452=EDGE_CURVE('',#239,#257,#120,.T.);
#463=EDGE_CURVE('',#261,#249,#124,.T.);
#465=EDGE_CURVE('',#261,#245,#190,.T.);
#467=EDGE_CURVE('',#245,#259,#181,.T.);
#479=EDGE_CURVE('',#263,#251,#137,.T.);
#481=EDGE_CURVE('',#263,#235,#203,.T.);
#483=EDGE_CURVE('',#235,#261,#194,.T.);
#496=EDGE_CURVE('',#257,#253,#146,.T.);
#498=EDGE_CURVE('',#253,#263,#207,.T.);
#509=EDGE_CURVE('',#253,#255,#142,.T.);
#521=EDGE_CURVE('',#234,#235,#154,.T.);
#523=EDGE_CURVE('',#235,#253,#199,.T.);
#526=EDGE_CURVE('',#255,#247,#158,.T.);
#528=EDGE_CURVE('',#247,#234,#163,.T.);
#539=EDGE_CURVE('',#234,#247,#168,.T.);
#542=EDGE_CURVE('',#255,#245,#173,.T.);
#544=EDGE_CURVE('',#245,#235,#186,.T.);
#592=CLOSED_SHELL('',(#279,#293,#308,#321,#337,#352,#365,#375,#391,#416,#429,
#439,#456,#472,#488,#503,#515,#532,#548,#558,#569,#580,#591));
#593=MANIFOLD_SOLID_BREP('',#592);
#595=(LENGTH_UNIT()NAMED_UNIT(*)SI_UNIT(.MILLI.,.METRE.));
#599=(NAMED_UNIT(*)PLANE_ANGLE_UNIT()SI_UNIT($,.RADIAN.));
#602=(NAMED_UNIT(*)SI_UNIT($,.STERADIAN.)SOLID_ANGLE_UNIT());
#605=ADVANCED_BREP_SHAPE_REPRESENTATION('',(#593),#604);
#612=PRODUCT_DEFINITION('design','',#611,#608);
#613=PRODUCT_DEFINITION_SHAPE('','SHAPE FOR MGAG-0083-SA.',#612);
#614=SHAPE_DEFINITION_REPRESENTATION(#613,#605);
ENDSEC;
END-ISO-10303-21;
